  0
SECTION
  2
HEADER
  9
$ACADVER
  1
AC1009
  9
$INSBASE
 10
232.3751108980598
 20
150.6572531479735
 30
0.0
  9
$EXTMIN
 10
232.3751108980598
 20
150.6572531479735
 30
0.0
  9
$EXTMAX
 10
288.2176065641768
 20
224.2702916123604
 30
0.0
  9
$LIMMIN
 10
0.0
 20
0.0
  9
$LIMMAX
 10
420.0
 20
297.0
  9
$ORTHOMODE
 70
     0
  9
$REGENMODE
 70
     1
  9
$FILLMODE
 70
     1
  9
$QTEXTMODE
 70
     0
  9
$MIRRTEXT
 70
     0
  9
$DRAGMODE
 70
     2
  9
$LTSCALE
 40
1.0
  9
$OSMODE
 70
     0
  9
$ATTMODE
 70
     1
  9
$TEXTSIZE
 40
3.5
  9
$TRACEWID
 40
0.05
  9
$TEXTSTYLE
  7
STANDARD
  9
$CLAYER
  8
ITEM_50
  9
$CELTYPE
  6
BYLAYER
  9
$CECOLOR
 62
   256
  9
$DIMSCALE
 40
1.0
  9
$DIMASZ
 40
2.5
  9
$DIMEXO
 40
1.0
  9
$DIMDLI
 40
8.0
  9
$DIMRND
 40
0.0
  9
$DIMDLE
 40
0.0
  9
$DIMEXE
 40
2.0
  9
$DIMTP
 40
0.1
  9
$DIMTM
 40
0.1
  9
$DIMTXT
 40
3.5
  9
$DIMCEN
 40
2.0
  9
$DIMTSZ
 40
0.0
  9
$DIMTOL
 70
     0
  9
$DIMLIM
 70
     0
  9
$DIMTIH
 70
     0
  9
$DIMTOH
 70
     0
  9
$DIMSE1
 70
     0
  9
$DIMSE2
 70
     0
  9
$DIMTAD
 70
     1
  9
$DIMZIN
 70
     8
  9
$DIMBLK
  1

  9
$DIMASO
 70
     0
  9
$DIMSHO
 70
     0
  9
$DIMPOST
  1

  9
$DIMAPOST
  1

  9
$DIMALT
 70
     0
  9
$DIMALTD
 70
     2
  9
$DIMALTF
 40
25.39999999999999
  9
$DIMLFAC
 40
1.0
  9
$DIMTOFL
 70
     1
  9
$DIMTVP
 40
0.0
  9
$DIMTIX
 70
     0
  9
$DIMSOXD
 70
     0
  9
$DIMSAH
 70
     0
  9
$DIMBLK1
  1

  9
$DIMBLK2
  1

  9
$DIMSTYLE
  2
*UNNAMED
  9
$DIMCLRD
 70
     0
  9
$DIMCLRE
 70
     0
  9
$DIMCLRT
 70
     0
  9
$DIMTFAC
 40
1.0
  9
$DIMGAP
 40
0.09
  9
$LUNITS
 70
     2
  9
$LUPREC
 70
     3
  9
$SKETCHINC
 40
0.1
  9
$FILLETRAD
 40
20.0
  9
$AUNITS
 70
     0
  9
$AUPREC
 70
     3
  9
$MENU
  1

  9
$ELEVATION
 40
0.0
  9
$PELEVATION
 40
0.0
  9
$THICKNESS
 40
0.0
  9
$LIMCHECK
 70
     0
  9
$BLIPMODE
 70
     0
  9
$CHAMFERA
 40
0.0
  9
$CHAMFERB
 40
0.0
  9
$SKPOLY
 70
     1
  9
$TDCREATE
 40
2448895.565921990
  9
$TDUPDATE
 40
2449393.451114351
  9
$TDINDWG
 40
0.0000616898
  9
$TDUSRTIMER
 40
0.0000616898
  9
$USRTIMER
 70
     1
  9
$ANGBASE
 50
0.0
  9
$ANGDIR
 70
     0
  9
$PDMODE
 70
     3
  9
$PDSIZE
 40
2.0
  9
$PLINEWID
 40
0.0
  9
$COORDS
 70
     2
  9
$SPLFRAME
 70
     0
  9
$SPLINETYPE
 70
     6
  9
$SPLINESEGS
 70
     8
  9
$ATTDIA
 70
     1
  9
$ATTREQ
 70
     1
  9
$HANDLING
 70
     0
  9
$HANDSEED
  5
B1
  9
$SURFTAB1
 70
     6
  9
$SURFTAB2
 70
     6
  9
$SURFTYPE
 70
     6
  9
$SURFU
 70
     6
  9
$SURFV
 70
     6
  9
$UCSNAME
  2

  9
$UCSORG
 10
0.0
 20
0.0
 30
0.0
  9
$UCSXDIR
 10
1.0
 20
0.0
 30
0.0
  9
$UCSYDIR
 10
0.0
 20
1.0
 30
0.0
  9
$PUCSNAME
  2

  9
$PUCSORG
 10
0.0
 20
0.0
 30
0.0
  9
$PUCSXDIR
 10
1.0
 20
0.0
 30
0.0
  9
$PUCSYDIR
 10
0.0
 20
1.0
 30
0.0
  9
$USERI1
 70
     0
  9
$USERI2
 70
     3
  9
$USERI3
 70
    15
  9
$USERI4
 70
     0
  9
$USERI5
 70
     0
  9
$USERR1
 40
0.0
  9
$USERR2
 40
1.0
  9
$USERR3
 40
0.0
  9
$USERR4
 40
1.0
  9
$USERR5
 40
0.0
  9
$WORLDVIEW
 70
     1
  9
$SHADEDGE
 70
     3
  9
$SHADEDIF
 70
    70
  9
$TILEMODE
 70
     1
  9
$MAXACTVP
 70
    16
  9
$PINSBASE
 10
0.0
 20
0.0
 30
0.0
  9
$PLIMCHECK
 70
     0
  9
$PEXTMIN
 10
1.000000000000000E+20
 20
1.000000000000000E+20
 30
1.000000000000000E+20
  9
$PEXTMAX
 10
-1.000000000000000E+20
 20
-1.000000000000000E+20
 30
-1.000000000000000E+20
  9
$PLIMMIN
 10
0.0
 20
0.0
  9
$PLIMMAX
 10
12.0
 20
9.0
  9
$UNITMODE
 70
     0
  9
$VISRETAIN
 70
     0
  9
$PLINEGEN
 70
     0
  9
$PSLTSCALE
 70
     0
  9
$TREEDEPTH
 70
  3020
  9
$DWGCODEPAGE
  3
undefined
  0
ENDSEC
  0
SECTION
  2
TABLES
  0
TABLE
  2
VPORT
 70
     2
  0
VPORT
  2
*ACTIVE
 70
     0
 10
0.0
 20
0.0
 11
1.0
 21
1.0
 12
283.1947145608233
 22
190.4946543242923
 13
0.0
 23
0.0
 14
7.0
 24
7.0
 15
0.0
 25
0.0
 16
0.0
 26
0.0
 36
1.0
 17
0.0
 27
0.0
 37
0.0
 40
79.67480235263764
 41
1.275675675675675
 42
50.0
 43
0.0
 44
0.0
 50
0.0
 51
0.0
 71
     0
 72
 10000
 73
     1
 74
     0
 75
     0
 76
     0
 77
     0
 78
     0
  0
ENDTAB
  0
TABLE
  2
LTYPE
 70
     3
  0
LTYPE
  2
AUSGEZOGEN
 70
    64
  3
Solid line
 72
    65
 73
     0
 40
0.0
  0
LTYPE
  2
ITEM-STRICHPUNKT
 70
    64
  3
__ . __ . __
 72
    65
 73
     4
 40
3.599999999999999
 49
2.399999999999999
 49
-0.6
 49
0.0
 49
-0.6
  0
LTYPE
  2
CONTINUOUS
 70
    64
  3
Solid line
 72
    65
 73
     0
 40
0.0
  0
ENDTAB
  0
TABLE
  2
LAYER
 70
     4
  0
LAYER
  2
0
 70
     0
 62
     7
  6
AUSGEZOGEN
  0
LAYER
  2
ITEM_50
 70
    64
 62
     7
  6
AUSGEZOGEN
  0
LAYER
  2
ITEM_STP
 70
    64
 62
     4
  6
ITEM-STRICHPUNKT
  0
LAYER
  2
ITEM_HILFE
 70
    64
 62
     3
  6
CONTINUOUS
  0
ENDTAB
  0
TABLE
  2
STYLE
 70
     1
  0
STYLE
  2
STANDARD
 70
     0
 40
0.0
 41
1.0
 50
0.0
 71
     0
 42
3.5
  3
iso
  4

  0
ENDTAB
  0
TABLE
  2
VIEW
 70
     0
  0
ENDTAB
  0
TABLE
  2
UCS
 70
     0
  0
ENDTAB
  0
TABLE
  2
APPID
 70
     1
  0
APPID
  2
ACAD
 70
    64
  0
ENDTAB
  0
TABLE
  2
DIMSTYLE
 70
     0
  0
ENDTAB
  0
ENDSEC
  0
SECTION
  2
BLOCKS
  0
ENDSEC
  0
SECTION
  2
ENTITIES
  0
LINE
  8
ITEM_50
 10
253.7894380319259
 20
192.1684658288678
 30
0.0
 11
253.789438031926
 21
187.1684658288678
 31
0.0
  0
CIRCLE
  8
ITEM_50
 10
253.7894380319264
 20
180.9184658288678
 30
0.0
 40
6.25
  0
CIRCLE
  8
ITEM_50
 10
253.7894380319265
 20
163.4184658288678
 30
0.0
 40
6.25
  0
LINE
  8
ITEM_50
 10
253.7894380319269
 20
157.1684658288681
 30
0.0
 11
253.789438031927
 21
152.1684658288678
 31
0.0
  0
LINE
  8
ITEM_50
 10
253.7894380319264
 20
174.6684658288678
 30
0.0
 11
253.7894380319265
 21
169.6684658288675
 31
0.0
  0
LINE
  8
ITEM_50
 10
233.8048083101547
 20
192.1684658288678
 30
0.0
 11
233.8048083101547
 21
152.1684658288678
 31
0.0
  0
LINE
  8
ITEM_50
 10
273.7740680319259
 20
192.1684658288678
 30
0.0
 11
273.7740680319259
 21
152.1684658288678
 31
0.0
  0
LINE
  8
ITEM_50
 10
233.8048083101547
 20
192.1684658288678
 30
0.0
 11
273.7740680319259
 21
192.1684658288678
 31
0.0
  0
LINE
  8
ITEM_50
 10
233.8048083101547
 20
152.1684658288678
 30
0.0
 11
273.7740680319259
 21
152.1684658288678
 31
0.0
  0
LINE
  8
ITEM_STP
 10
253.7894380319259
 20
150.6572531479735
 30
0.0
 11
253.7894380319259
 21
193.3898122938257
 31
0.0
  0
LINE
  8
ITEM_50
 10
267.1894380319259
 20
192.1684658288678
 30
0.0
 11
267.1894380319259
 21
152.1684658288678
 31
0.0
  0
LINE
  8
ITEM_50
 10
240.3894380319259
 20
192.1684658288678
 30
0.0
 11
240.3894380319259
 21
152.1684658288678
 31
0.0
  0
LINE
  8
ITEM_50
 10
262.5804460319259
 20
210.2009534784943
 30
0.0
 11
264.1232450319259
 21
207.1730384784943
 31
0.0
  0
ARC
  8
ITEM_50
 10
263.7366400319259
 20
206.8559644784943
 30
0.0
 40
0.5
 50
224.994134
 51
39.35682099999999
  0
LINE
  8
ITEM_50
 10
261.7245860319259
 20
211.6081224784943
 30
0.0
 11
265.2036520319259
 21
215.0871884784943
 31
0.0
  0
ARC
  8
ITEM_50
 10
261.8094380319259
 20
210.8605174784943
 30
0.0
 40
0.12
 50
180.0
 51
263.8493599999999
  0
ARC
  8
ITEM_50
 10
261.8094380319259
 20
211.5232694784943
 30
0.0
 40
0.12
 50
135.0
 51
180.0
  0
ARC
  8
ITEM_50
 10
261.6894380319259
 20
209.7469644784943
 30
0.0
 40
1.0
 50
27.0
 51
83.84936
  0
LINE
  8
ITEM_50
 10
261.6894380319259
 20
210.8605174784943
 30
0.0
 11
261.6894380319259
 21
211.5232694784943
 31
0.0
  0
ARC
  8
ITEM_50
 10
243.8422370319259
 20
206.8559644784943
 30
0.0
 40
0.5
 50
140.643179
 51
315.005866
  0
LINE
  8
ITEM_50
 10
244.9984310319259
 20
210.2009534784943
 30
0.0
 11
243.4556310319259
 21
207.1730384784943
 31
0.0
  0
LINE
  8
ITEM_50
 10
245.8894380319259
 20
210.8605174784943
 30
0.0
 11
245.8894380319259
 21
211.5232694784943
 31
0.0
  0
ARC
  8
ITEM_50
 10
245.8894380319259
 20
209.7469644784943
 30
0.0
 40
1.0
 50
96.15063999999999
 51
153.0
  0
ARC
  8
ITEM_50
 10
245.7694380319259
 20
211.5232694784943
 30
0.0
 40
0.12
 50
0.0
 51
45.0
  0
ARC
  8
ITEM_50
 10
245.7694380319259
 20
210.8605174784943
 30
0.0
 40
0.12
 50
276.15064
 51
0.0
  0
LINE
  8
ITEM_50
 10
245.8542910319259
 20
211.6081224784943
 30
0.0
 11
242.3752250319259
 21
215.0871884784943
 31
0.0
  0
LINE
  8
ITEM_50
 10
237.7894380319259
 20
222.8559644784943
 30
0.0
 11
240.0894380319259
 21
222.8559644784943
 31
0.0
  0
LINE
  8
ITEM_50
 10
262.7078060319259
 20
215.1582614784943
 30
0.0
 11
262.7078060319259
 21
215.1582614784943
 31
0.0
  0
LINE
  8
ITEM_STP
 10
253.7894380319259
 20
206.3559644784943
 30
0.0
 11
253.7894380319259
 21
223.8511634784943
 31
0.0
  0
LINE
  8
ITEM_50
 10
253.4894380319259
 20
222.8559644784943
 30
0.0
 11
240.6894380319259
 21
222.8559644784943
 31
0.0
  0
LINE
  8
ITEM_50
 10
253.7894380319259
 20
220.3559644784943
 30
0.0
 11
245.7894380319259
 21
220.3559644784943
 31
0.0
  0
ARC
  8
ITEM_50
 10
235.7894636863317
 20
215.5182852523006
 30
0.0
 40
2.0
 50
180.0004399999999
 51
101.537399
  0
ARC
  8
ITEM_50
 10
237.7894380319259
 20
218.8559644784943
 30
0.0
 40
3.0
 50
84.97616200000001
 51
180.0004399999999
  0
ARC
  8
ITEM_50
 10
237.7894380319259
 20
218.8559644784943
 30
0.0
 40
4.0
 50
84.97600000000001
 51
180.0004399999999
  0
LINE
  8
ITEM_50
 10
234.7894383231232
 20
218.8559414248695
 30
0.0
 11
234.7894452806003
 21
217.9677675429964
 31
0.0
  0
LINE
  8
ITEM_50
 10
233.7894384603316
 20
218.85593039061
 30
0.0
 11
233.7894635776015
 21
215.5182702444611
 31
0.0
  0
ARC
  8
ITEM_50
 10
235.2894455349292
 20
217.9677710240235
 30
0.0
 40
0.5
 50
180.0004399999999
 51
281.5373989999999
  0
LINE
  8
ITEM_50
 10
243.7894380319259
 20
218.3559644784943
 30
0.0
 11
243.7894380319259
 21
218.2067844784943
 31
0.0
  0
LINE
  8
ITEM_50
 10
245.1953260319259
 20
214.8126724784943
 30
0.0
 11
247.0826260319259
 21
212.9253714784943
 31
0.0
  0
ARC
  8
ITEM_50
 10
248.5894380319259
 20
218.2067844784943
 30
0.0
 40
4.799999999999999
 50
180.0
 51
225.0
  0
ARC
  8
ITEM_50
 10
238.3894380319259
 20
221.3559644784943
 30
0.0
 40
0.5
 50
0.0
 51
90.0
  0
ARC
  8
ITEM_50
 10
243.7894380319259
 20
216.5014024784943
 30
0.0
 40
2.0
 50
180.0
 51
225.0
  0
ARC
  8
ITEM_50
 10
242.8301750319259
 20
221.6059644784943
 30
0.0
 40
0.25
 50
316.826546
 51
90.0
  0
ARC
  8
ITEM_50
 10
241.3894380319259
 20
221.3559644784943
 30
0.0
 40
0.5
 50
90.0
 51
180.0
  0
LINE
  8
ITEM_50
 10
241.3894380319259
 20
221.8559644784943
 30
0.0
 11
242.8301750319259
 21
221.8559644784943
 31
0.0
  0
ARC
  8
ITEM_50
 10
246.2942820319259
 20
218.3559704784943
 30
0.0
 40
4.5
 50
136.826546
 51
180.0
  0
ARC
  8
ITEM_50
 10
240.3894380319259
 20
222.8001864784943
 30
0.0
 40
0.12
 50
236.309932
 51
303.6900679999999
  0
LINE
  8
ITEM_50
 10
240.3228740319259
 20
222.7003404784943
 30
0.0
 11
240.0894380319259
 21
222.8559644784943
 31
0.0
  0
LINE
  8
ITEM_50
 10
240.6894380319259
 20
222.8559644784943
 30
0.0
 11
240.4560020319259
 21
222.7003404784943
 31
0.0
  0
LINE
  8
ITEM_50
 10
241.7894380319259
 20
216.5014024784943
 30
0.0
 11
241.7894380319259
 21
218.3559704784943
 31
0.0
  0
LINE
  8
ITEM_50
 10
237.7894300319259
 20
221.8559644784943
 30
0.0
 11
238.3894380319259
 21
221.8559644784943
 31
0.0
  0
LINE
  8
ITEM_50
 10
238.8894380319259
 20
220.3559644784943
 30
0.0
 11
238.8894380319259
 21
221.3559644784943
 31
0.0
  0
LINE
  8
ITEM_50
 10
240.8894380319259
 20
221.3559644784943
 30
0.0
 11
240.8894380319259
 21
220.3559644784943
 31
0.0
  0
ARC
  8
ITEM_50
 10
245.7894380319259
 20
218.3559644784943
 30
0.0
 40
2.0
 50
90.0
 51
180.0
  0
LINE
  8
ITEM_50
 10
244.1958270319259
 20
206.5024474784943
 30
0.0
 11
247.0828070319259
 21
209.3900184784943
 31
0.0
  0
ARC
  8
ITEM_50
 10
245.3148590319259
 20
211.1576044784943
 30
0.0
 40
2.5
 50
315.005866
 51
45.0
  0
LINE
  8
ITEM_50
 10
240.8894380319259
 20
220.3559644784943
 30
0.0
 11
238.8894380319259
 21
220.3559644784943
 31
0.0
  0
LINE
  8
ITEM_50
 10
266.6894380319259
 20
220.3559644784943
 30
0.0
 11
268.6894380319259
 21
220.3559644784943
 31
0.0
  0
ARC
  8
ITEM_50
 10
262.2640180319259
 20
211.1576044784943
 30
0.0
 40
2.5
 50
135.0
 51
224.994134
  0
LINE
  8
ITEM_50
 10
263.3830500319259
 20
206.5024474784943
 30
0.0
 11
260.4960700319259
 21
209.3900184784943
 31
0.0
  0
LINE
  8
ITEM_50
 10
254.0894380319259
 20
222.8559644784943
 30
0.0
 11
253.8560020319259
 21
222.7003404784943
 31
0.0
  0
LINE
  8
ITEM_50
 10
253.7228740319259
 20
222.7003404784943
 30
0.0
 11
253.4894380319259
 21
222.8559644784943
 31
0.0
  0
ARC
  8
ITEM_50
 10
253.7894380319259
 20
222.8001864784943
 30
0.0
 40
0.12
 50
236.309932
 51
303.6900679999999
  0
ARC
  8
ITEM_50
 10
261.7894380319259
 20
218.3559644784943
 30
0.0
 40
2.0
 50
0.0
 51
90.0
  0
LINE
  8
ITEM_50
 10
266.6894380319259
 20
221.3559644784943
 30
0.0
 11
266.6894380319259
 21
220.3559644784943
 31
0.0
  0
LINE
  8
ITEM_50
 10
268.6894380319259
 20
220.3559644784943
 30
0.0
 11
268.6894380319259
 21
221.3559644784943
 31
0.0
  0
LINE
  8
ITEM_50
 10
269.7894470319259
 20
221.8559644784943
 30
0.0
 11
269.1894380319259
 21
221.8559644784943
 31
0.0
  0
LINE
  8
ITEM_50
 10
267.4894380319259
 20
222.8559644784943
 30
0.0
 11
269.7894380319259
 21
222.8559644784943
 31
0.0
  0
LINE
  8
ITEM_50
 10
266.8894380319259
 20
222.8559644784943
 30
0.0
 11
267.1228740319259
 21
222.7003404784943
 31
0.0
  0
LINE
  8
ITEM_50
 10
267.2560020319259
 20
222.7003404784943
 30
0.0
 11
267.4894380319259
 21
222.8559644784943
 31
0.0
  0
ARC
  8
ITEM_50
 10
267.1894380319259
 20
222.8001864784943
 30
0.0
 40
0.12
 50
236.309932
 51
303.6900679999999
  0
LINE
  8
ITEM_50
 10
266.1894380319259
 20
221.8559644784943
 30
0.0
 11
264.7487020319259
 21
221.8559644784943
 31
0.0
  0
ARC
  8
ITEM_50
 10
266.1894380319259
 20
221.3559644784943
 30
0.0
 40
0.5
 50
0.0
 51
90.0
  0
ARC
  8
ITEM_50
 10
264.7487020319259
 20
221.6059644784943
 30
0.0
 40
0.25
 50
90.0
 51
223.1734539999999
  0
ARC
  8
ITEM_50
 10
269.1894380319259
 20
221.3559644784943
 30
0.0
 40
0.5
 50
90.0
 51
180.0
  0
ARC
  8
ITEM_50
 10
258.9894380319259
 20
218.2067844784943
 30
0.0
 40
4.799999999999999
 50
315.0
 51
0.0
  0
LINE
  8
ITEM_50
 10
262.383551031926
 20
214.8126724784943
 30
0.0
 11
260.4962510319259
 21
212.9253714784943
 31
0.0
  0
LINE
  8
ITEM_50
 10
263.7894380319259
 20
218.3559644784943
 30
0.0
 11
263.7894380319259
 21
218.2067844784943
 31
0.0
  0
LINE
  8
ITEM_50
 10
253.7894380319259
 20
220.3559644784943
 30
0.0
 11
261.7894380319259
 21
220.3559644784943
 31
0.0
  0
ARC
  8
ITEM_50
 10
272.2894315250808
 20
217.9677711115965
 30
0.0
 40
0.5
 50
258.462601
 51
359.9995599999999
  0
LINE
  8
ITEM_50
 10
273.7894385996784
 20
218.855930478183
 30
0.0
 11
273.7894124862503
 21
215.5182702444612
 31
0.0
  0
LINE
  8
ITEM_50
 10
272.7779110319259
 20
218.5932224784943
 30
0.0
 11
272.7001240319259
 21
217.7084614784943
 31
0.0
  0
ARC
  8
ITEM_50
 10
269.7894380319259
 20
218.8559644784943
 30
0.0
 40
4.0
 50
359.9995599999999
 51
95.024
  0
ARC
  8
ITEM_50
 10
269.7894380319259
 20
218.8559644784943
 30
0.0
 40
3.0
 50
359.9995599999999
 51
95.02383799999998
  0
ARC
  8
ITEM_50
 10
271.7894123775201
 20
215.5182852523006
 30
0.0
 40
2.0
 50
78.46260099999999
 51
359.9995599999999
  0
LINE
  8
ITEM_50
 10
254.0894380319259
 20
222.8559644784943
 30
0.0
 11
266.8894380319259
 21
222.8559644784943
 31
0.0
  0
POINT
  8
ITEM_HILFE
 10
233.7894380319259
 20
222.8559644784943
 30
0.0
  0
POINT
  8
ITEM_HILFE
 10
273.7894380319259
 20
222.8559644784943
 30
0.0
  0
POINT
  8
ITEM_HILFE
 10
253.7894380319259
 20
222.8559644784943
 30
0.0
  0
LINE
  8
ITEM_50
 10
265.7894380319259
 20
216.5014024784943
 30
0.0
 11
265.7894380319259
 21
218.3559704784943
 31
0.0
  0
ARC
  8
ITEM_50
 10
261.2845940319259
 20
218.3559704784943
 30
0.0
 40
4.5
 50
0.0
 51
43.17345399999997
  0
ARC
  8
ITEM_50
 10
263.7894380319259
 20
216.5014024784943
 30
0.0
 40
2.0
 50
315.0
 51
0.0
  0
LINE
  8
ITEM_50
 10
288.2176065641768
 20
222.8559644784943
 30
0.0
 11
287.2176065641768
 21
222.8559644784943
 31
0.0
  0
LINE
  8
ITEM_50
 10
288.2176065641768
 20
213.5182852523006
 30
0.0
 11
288.2176065641768
 21
222.8559644784943
 31
0.0
  0
LINE
  8
ITEM_50
 10
287.2176065641768
 20
213.5182852523006
 30
0.0
 11
288.2176065641768
 21
213.5182852523006
 31
0.0
  0
LINE
  8
ITEM_50
 10
287.2176065641768
 20
222.8559644784943
 30
0.0
 11
287.2176065641768
 21
213.5182852523006
 31
0.0
  0
ENDSEC
  0
EOF
